Sunemu.net / Artistes / L'Arcusgi / Sò Elli / A tè surella  

A tè surella

A tè surella

intro : lam/rem

lam/sol
Senti u stridu di u chjonchju

Fa/do
Ribumba trà mez'è fronde

Rem/lam
E u rughju sopra l'onde

Fa/mi
Di Tavignanu u camonchju

Fa/mi
Acqua chieta sbond'i muri

Rem/mi/lam
Oghje nè simu sicuri

Ascolta u fiscu stridente
Di l'omu addisperatu
Nant'è sponde splendurente
Ellu cerca l'altu pratu
Quellu chì frischja a notte
Forse chjamerà a morte

Senti ughjulà lu ventu
E 'animali famiti
chè so voce di spaventu
E anime di riniti
Streghe maghi surpatore
Cresce lu nostru terrore

Ma un'appia timore
Sippii curagis'e fiera
Camina sin'a la sera
Senza teme lu rimore
Di sti lochi di furore
Nè feremu u nostr'albore
Tempu ghjunt'a la casetta
Trinca versu a Bocca piana
Quì ci canta una funtana
E un nè manca filetta
Tandu sarè a mio fata
Eper sempr'a mio spusata

Un trema più zitelletta
Manc'un pensa a la morte
Un lettinu di filetta
Ci ferà francà a notte
E inseme sparteremu
A passione chi ci move.

E schjarisce u caminu di a notte clandestina.

Position du capodastre : 0

Créé par seb,
le 30 Jan 2005

Note : Note des accords de
A tè surella (5 votes)


Nombre de clics : 2181



Commentaire Par acqua2b le Lundi 03 Septembre 2007
----------------------------------------------------------------1-0------------
----------1-0------------------------------------0---------1--------1------1-
-------2-------2-----2------------0---------0---------2----------------2----
----2-------------2------------2---------2---------3-------------------------
-0--------------------------2---------2---------------------------------------
-------------------------0-----------------------------------------------------

Commentaire Par acqua2b le Lundi 03 Septembre 2007
desolé pr l'arpege tt a été décalé..

Commentaire Par acqua2b le Lundi 03 Septembre 2007
il me semble que le 2eme accord sur la 1ere phrase est plutot un Mim.
Lamin/Mimin et non pas Lamin/sol.
Lamin Mimin Fa Do Rémin
e--------------------------------------------------------------1-0----------------------------------0------------1-0----------
B----------1-0-----------------------------------0--------1--------1-----1-----------1--------1------------3--------3-----3
G-------2-------2-----2------------0---------0--------2--------------2-----------0--------0------------2---------------2--- ect....
D----2-------------2------------2---------2--------3---------------------------2--------2------------0----------------------
A-0--------------------------2---------2-------------------------------------3------------------------------------------------
E-------------------------0----------------------------------------------------------------------------------------------------

© 2004-2019 SUNEMU.NET - Flux RSS