Sunemu.net / Artistes / Petru Guelfucci / Corsica / Zitelluccia di Rumenia  

Zitelluccia di Rumenia

Zitelluccia di Rumenia

Capo 3

E|--3-----3--2-----2--|--0------------0--|--2-----2--0-----0--------|
B|------3--------3----|--------3-2--3----|------2------------3-----3|
G|----4--------4------|------2-----------|----2----------2-------2--|
D|--------------------|----2-------------|-------------2-------2----|
A|-----------2--------|--0---------------|-----------0--------------|
E|--3-----------------|------------------|--2-----------------------|

|---------------3-7--|--5------3-----3--|
|--2-3-2------3------|----3--------5----|
|--------2--4--------|------4----4------|
|--------------------|--0------5--------|
|--------------------|------------------|
|-----------3--------|------------------|

|----------5-----5--|--3-----3--2----------|-------3-----3--2-----2-|
|--7-8-7------------|------2--------4-5-4--|--5-7------3--------3---|
|--------6-----6----|----3--------2--------|---------4--------4-----|
|------------7------|--2--------1----------|------------------------|
|-------------------|----------------------|----------------2-------|
|--5----------------|----------------------|-------3----------------|

|--0---------------|--------5------|------------------|
|------0-3-2--3-5--|------5-----5--|--3---------------|
|----2-------------|----6-----6----|----2---2---2-----|
|------------------|---------------|--0---0---2---5---|
|--0-------0-------|---------------|------------------|
|------------------|--5------------|------------------|

Créé par Ghjise_G le 02 Sept 2007
Dernière modification par Ghjise_G le 03 Sept 2007

Note : Note de la tablature de
Zitelluccia di Rumenia (5 votes)

Nombre de clics : 2066

Envoyer les accords de 
Zitelluccia di Rumenia à un ami Envoyer à un ami
Imprimer les accords de 
Zitelluccia di Rumenia Imprimer




© 2004-2019 SUNEMU.NET - Flux RSS