Sunemu.net / Artistes / L'Arcusgi / Resistenza / Resistenza  

Resistenza

Resistenza

Capo 3

Intro :
(Do / Ré7 / Mim / Mim) 6 volte
(Do / Ré / Mim) 3 volte

Face più di quarant'anni
Mim / Do
Chè tu porti negri panni
Ré / Mim
Strascinend'u to dulore
Mim / Do
Chì ti svegli'à tutte l'ore
Ré / Mim
U to maritu hè cascatu
Sol / Ré
Bon figliolu bon suldatu
Do / Si7
Per 'ssa Francia assassina
Sol / Ré
Chì sumena cbè ruvina.
Si7 / Mim

Resistenza
Do-Ré-Mim
di pett'à l'oppressore
Ré / Mim
Resistenza per'a vita per l'onore.

Ora tocc'à me a sai
Di cunnosce mille guai
E in pettu porto dolu
Di più d'un bon figliolu
Ma u fiume di a rivolta
Cresce è mi porta
Cun fede patriotta
Sin'à l'ultima lotta.

Resistenza di pett'à l'oppressore
Resistenza per'a vita per l'onore.

Fratell' incarcerati
Da noi alluntanati
Ma più d'un bracciu fieru
Svizzerà lu strangeru
Ghjuventù sparghji l'ale
Di a lotta Naziunale
Ricusa tuttu u male
Di Francia culuniale.

Resistenza di pett'à l'oppressore
Resistenza per'a vita per l'onore.

Lingu'assuffucata
E cultura spugliata
Paesi spupulati
Paisan'affannati
Eccu lu veranu
Ch'elli oghji ci danu
Demuci a manu
Suminem'u nostru granu.

Resistenza di pett'à l'oppressore
Resistenza per'a vita per l'onore.

Resistenza di pett'à l'oppressore
Resistenza per u Fronte per l'onore.

Position du capodastre : 0

Créé par seb,
le 21 Déc 2005

Note : Note des accords de
Resistenza (45 votes)


Nombre de clics : 6196



Commentaire Par toto scemu le Jeudi 14 Avril 2016
e|--------------------------2--------------------------------------------------|
B|----------3-----1-----3-----3------------3---0------------1--0----------|
G|-------0-----0------2-----2----------0-----0-----------0---------2---0-|
D|-----2------------0----------------2------------------2-------------------|
A|--3--------------------------------------------------------------------------|
E|----------------------------------0-----------------0-----------------------|
C D E
Cusi mi pare chi ghè megliu ..

Commentaire Par Ceccè le Lundi 30 Novembre 2015
Pour ceux qui jouent en rythmique et qui galèrent avec le si7, un simple la mineur peut passer

Commentaire Par popo le Mercredi 08 Septembre 2010
sans capo c mieux!

Commentaire Par Pastoru le Mardi 30 Juin 2009
oui c'est mieux mais bon c'est pas pour autant juste

Commentaire Par Marcu Andria Cristiani le Mardi 30 Juin 2009
chi tanti guitar pro ! Tout d'oreille !

Commentaire Par giulian2a le Jeudi 22 Janvier 2009
salute a tutti c'est giulian2a , Pastore sur tu veux je te fais l'intro de la video en Guitar pro......... tu me dis........

Commentaire Par Pastore le Jeudi 22 Janvier 2009
Effectivement c'est une version simplifié j ai la version complete mais je ne suis pas chez moi je la posterai ce week end ahé a doppu

Commentaire Par jean no le Jeudi 22 Janvier 2009
bonjour a tutti,je trouve qu'il manque des notes sur les tablature posté sur le site, contrairement a la video de giulian2a ou je reconais tres bien la chanson, ... voila mon avis !!!!!!, si quelqu'un pourait posté la chanson en format guitar pro .. sa m'arrangerais merci !!!!!

Commentaire Par giulian2a le Jeudi 22 Janvier 2009
Salut clemS c'est giulian2a , l'auteur de la video sur youtube , dis-moi j'ai pas compris , tu trouve qu'il mmanque des notes sur ma video ou dans les commentaires sur Sunemu ? a prestu ........ Rinatu di Mimoria Tramandata

Commentaire Par clemS le Jeudi 22 Janvier 2009
éte vous vraiment certain de tte les note g limprésion kil en manke a certain endroi
http://fr.youtube.com/watch?v=QoHWE6JW1P0&feature=related

Commentaire Par angeooo de cuttoli le Mardi 29 Juillet 2008
ooooo PADO LE FOU !!!!!

Commentaire Par pado le Dimanche 20 Avril 2008
je ne suis que debutant c'est pour ca , ... mais je trouve que c'est plus simple ca
e|-----------------------3-----2------------------------------------|
B|*--------3-----1-----3-----3----------1-----0----0-0-1-0-----*|
G|-------0-----0-----2---------------0-----0---------------2-0---|
D|-----2----------0----------------2-------------------------------|
A|*--3---------------------------2-------------------------------*|
E|-----------------------------------------------------------------|
que ca (Do / Ré7 / Mim / Mim) 6 volte
(Do / Ré / Mim) 3 volte

Commentaire Par Maestru le Samedi 12 Avril 2008
Les accords NORMAUX!!!

Commentaire Par pado le Samedi 12 Avril 2008
petite rectification :

e|-----------------------3-----2------------------------------------|
B|*--------3-----1-----3-----3----------1-----0----0-0-1-0-----*|
G|-------0-----0-----2---------------0-----0---------------2-0---|
D|-----2----------0----------------2-------------------------------|
A|*--3---------------------------2-------------------------------*|
E|-----------------------------------------------------------------|

Commentaire Par pado le Samedi 12 Avril 2008
e|-----------------------3-----2---------------------------------------|
B|*--------3-----1-----3-----3----------1-----0----0-0-1-0--------*|
G|-------0-----0-----2-----2----------0-----0---------------2-0----|
D|-----2-----2-----0----------------2-----2--------------------------|
A|*--3-----------------------------2-----2--------------------------*|
E|---------------------------------------------------------------------|

Commentaire Par pado le Samedi 12 Avril 2008
quand vous faites les accords normals, ne grattez que les deux dernieres cordes

Commentaire Par pado le Samedi 12 Avril 2008
pour l'intro il faut faire un do avec le doigt qui st sur la premiere case sur la troisieme et gratter sans gratter la derniere corde, refaire la meme chose mais avec un do normal. apres il faut faire un re maj avec le dernier doigt sur la troisieme case , puis faire un re maj normal . enfin il faut faire un mi min avec l'index comme si vous alliez faire un lamin gratter et faite juste apres un mi min normal . ça c'est l'intro

Commentaire Par Cunquistatore le Samedi 22 Mars 2008
Grazia ò ghjente

Commentaire Par Max2biguglia le Jeudi 20 Mars 2008
Mais bon aide toi de l'arpège du comme kié en dessou pour savoir a quel moment enlevé les doigts et tout ..
Eccu, je pense que tu devrais i arrivé ^^

Commentaire arpège Par max2bigulia le Jeudi 20 Mars 2008
Tu doit d'abord placer ta main comme pour faire un Do mais avc le petit doit case 3 corde 2. Tu fait sonnerune 1ere fois ensuite pareil mais sans le petit doigt , ensuite tu passe en Ré7, Tu fait sonner puis tu enlève l'oricullaire ( corde 1 case 2 ). Après tu repars avc le Do plus le petit doigt et tu fait comme indiqué en dessou .. Désolé c'est très mal expliquer j'éspère que tu comprendra ! A prestu

Commentaire Par Cunquistatore le Dimanche 16 Mars 2008
y a moyen pour qu'on me donne l'ordre des doigts sur l'arpège per piacè?

Commentaire Par liventi le Mardi 05 Février 2008
trop o top cette chanson


Commentaire Par yohan le Mercredi 21 Novembre 2007
J'adore
j'ai passé le Corse au bac
en l'écoutant cela me donne envie de m'y remettre

Commentaire Intro Par Visiteur le Lundi 22 Mai 2006
Voila je peux vous donner l'arpège de l'intro:

Accords:

Cadd9 C D7 Am/D E7m Em C7M Esus4
e--0--| e--0--| e--2--| e--0--| e--0--| e--0--| e--0--| e--0--|
B--3--| B--1--| B--1--| B--1--| B--3--| B--0--| B--1--| B--0--|
G--0--| G--0--| G--2--| G--2--| G--0--| G--0--| G--0--| G--2--|
D--2--| D--2--| D--0--| D--0--| D--2--| D--2--| D--2--| D--2--|
A--3--| A--3--| A--x--| A--x--| A--2--| A--2--| A--2--| A--2--|
E--x--| E--x--| E--x--| E--x--| E--0--| E--0--| E--0--| E--0--|


Cadd9 C D7 Am/D E7m Em C7M Em Esus4
e|-----------------------2-----0-------------------------------|
B|*--------3-----1-----1-----1----------3-----0-------1-0-----*|
G|-------0-----0-----2-----2----------0-----0-------0-----2-0--|
D|-----2-----2-----0----------------2-----2-------2------------|
A|*--3--------------------------------------------------------*|
E|--------------------------------0-------------0--------------|

Si ce n'est pas très clair faite un copier coller dans le block note

© 2004-2019 SUNEMU.NET - Flux RSS