Sunemu.net / Artistes / L'Arcusgi / Resistenza / Per a libertà  

Per a libertà

Per a libertà

Capo 4

intro :
Rém / Do / Rém / Do / Rém*4
Do / Rém / Do / Rém / Do / Rém / Rém

Tù chì sì stat'un ghjornu inghjuliatu
Sib / Rém
Per difend'a to lihertà
Do / Rém
Nun pensà più ch'ai straziatu
Sib / Rém
I to penseri lascia un pocu stà
Do / Rém
Nun ti lagnà più nant'u to passatu
Fa / Do
Ti sì battutu per pudè megliu stà
Sib / Rém
E pens'appena ch'indè questu mondu
Sib / Rém
Ci sò chì morenu per a libertà
Do / La

Veni cù mè porghji la manu
Fa / Do
Em'a cantà em'a cantà
Fa / Do
Perch'elle compiinu
Sib
In lu mondu sanu
Rém
L'offese à la libertà.
Sib / La

Ascolt'un pocu tù caru fratellu
lu certi lochi luntanu culà
Ci sò di l'omi si so mess'arritti
Ma l'hanu chjosi per l'eternità
Senza pudè difend'e so idee
L'anu tumbati senza pietà
Eranu tant'omi fieri
E so morti per a lihertà.

Veni cù mè porghji la manu
Em'a cantà em'a cantà
Perch'elle compiinu
In lu mondu sanu
L'offese à la libertà.

E ghjè per quessa chì ti dicu
Un piantà mai di luttà
Canteremu per i nostri fratelli
Scunsulati per sempre culà
Ch'e nostre voce saltin'e fruntiere
Chì manc'un piombu le possi parà
Per falle sente scalend'in lu celu
Ci vole à luttà ci vole à luttà.

Veni cù mè porghji la manu
Em'a cantà em'a cantà
Perch'elle compiinu
In lu mondu sanu
L'offese à la libertà.

Position du capodastre : 0

Créé par seb,
le 03 Mai 2005

Note : Note des accords de
Per a libertà (25 votes)


Nombre de clics : 6578



Commentaire Par ribellu le Vendredi 11 Novembre 2011
je trouve qu'a la place des Si7 des Sib sonnent mieux sinon merci pour avoir donné ces accords justes !

Commentaire Par anto.fiore le Jeudi 10 Novembre 2011
Sta canzona pò ghjucassi di ste duie manere. Per mè, e duie sò ghjuste. Eccu bona sera a prestu

Commentaire Par Julien2b le Dimanche 17 Juillet 2011
Les accords sont faux ,,

Tù chì sì stat'un ghjornu inghjuliatu
Do / Mim
Per difend'a to lihertà
Ré / Mim
Nun pensà più ch'ai straziatu
Do / Mim
I to penseri lascia un pocu stà
Ré / Mim
Nun ti lagnà più nant'u to passatu
Sol / Ré
Ti sì battutu per pudè megliu stà
Do / Mim
E pens'appena ch'indè questu mondu
Do / Mim
Ci sò chì morenu per a libertà
Ré / Si7

Veni cù mè porghji la manu
Sol / Ré
Em'a cantà em'a cantà
Sol / Ré
Perch'elle compiinu
Do
In lu mondu sanu
Mim
L'offese à la libertà.
Do / Si7

Voilà jpense que c'est les bons!!

Commentaire Par Squadra ghitare & Canzone le Vendredi 16 Juillet 2010
Salute ! Juste pour vous dire que cette magnifique chanson est entièrement détaillée et expliquée sur notre volume 3 ! Avec en
nouveauté un livret avec les tablatures ! Contact 0634180251 ou ghitarecanzone@laposte.net A prestu et le bonjour a toute la squadra de Sunemu !

Commentaire Par prupià le Vendredi 16 Juillet 2010
Oh Cici moi je suis de prupia et j'havite las bas .. Mais je vois pas ki tu es . Moi aussi je vais m'en aller sur le continent a la rentrée la : /

Commentaire Par ap le Jeudi 11 Juin 2009
patriotu

Commentaire Par ap le Jeudi 11 Juin 2009
tu as raison patrotu bella canzone et merci pour ces chanson

Commentaire Par Patriotu le Mercredi 10 Juin 2009
Que les Corses restent soudés pour la vie.. Beaucoup de gens pensent qu'ils sont plus corse que les autres parce qu'ils disent quelques mots dans notre langue.
Les vrai Corses , sont ceux qui croient en leur culture en leur histoire , l'histoire ce notre ile.
Per i nostri patrioti, corsu per campa, corsu per sempre.

Commentaire message Par Cici le Dimanche 03 Mai 2009
Oo la Corse une île si belle mon enfance est là-bas tout mes amies me manque les connerie et Prupià !!!!!!!!!!!!!!!!!!!!!

Commentaire message Par Cici le Samedi 02 Mai 2009
Oo pt moi je suis nee a ajaccio pour me retrouver a prupià OO pt jai demenager a dax les corse c ma vie Oo LesAnciens PQTAM Forza Prupià vive la corse Oo

Commentaire Par Pastore le Vendredi 17 Avril 2009
Sa va pour cette fois ok... Mais qu on y reprennent pas allé bona sera

Commentaire Par d le Jeudi 16 Avril 2009
scuse a tutti et surtout au breton pour les propos rascistes je me suis un peu envoler . mois j'adore la musiques corses je ne pourrais pas virrais de se sites pa vous ?

Commentaire Par Pastore le Jeudi 16 Avril 2009
O coco tu te crois ou la.....qui te permet de parler comme sa... Apres on s etonne qu on nous donne une reputation..... Bon primo tu vas te calmer tu es sur un forum d echange sur la chanson et culture corse alors tes propos racistes tu te les garde si tu n es pas content tu vires è po basta ! O le breton je te demande d accepter nos excuses au nom de sunemu ahé a doppu

Commentaire rg Par f le Mercredi 15 Avril 2009
au breton de merdes d'un on n'est pas tes amis et de deux degages de ce sites au sales francais de merdes ou je plastique ta maison pd

Commentaire Par Massimu le Lundi 23 Mars 2009
Per a libertà : http://www.youtube.com/watch?v=VlHoqpFyrK4

Commentaire Par Atao 29 le Lundi 23 Mars 2009
Bonjour les amis Corses!
Je suis breton et joueur de musique traditionnelle.
J'aurais souhaité savoir si cette chanson est jouée sur le même air que "Liberta", chant en breton écrit par Yvon Etienne et inspiré d'un air traditionnel Corse.
Existerait-il un lien où je pourrais écouter cet air là ?

Merci.

Commentaire Par paulu le Lundi 10 Novembre 2008
quelqu'un pourait ma dire coment se fai le rém*4 svp merci

Commentaire Par massoni2b05 le Mardi 12 Août 2008
ouba guerra di corsica suprana e suttana quì... simu corsi sopra e sottu...

Commentaire Hè vera Par Seb (Webmaster) le Lundi 30 Juin 2008
Hè detta !

Deve esse un ghjuvanottu chì manca à pena di maturità...

Commentaire Par Macanacciu le Lundi 30 Juin 2008
Eccuti un antru chi un hà capitu nudda! Sarà unu di sti merdosi vistutu in "bleu de Chine" é in "meindl" chi si credi piu corsu che l'altri! Un hà micca capitu chi ha diversità di a noscia lingua hè una forza é micca una dibbulezza! Ch'eddu si parli suttanacciu o supranacciu, si parla Corsu! hè quissa chi conta! U Corsu hè una lingua sola cù parechji varietà é ci voli a parlallu é basta pocu impremia s'eddi ci so paroddi chi cambiani!!!

Commentaire Par curtinese..orrezincu le Lundi 30 Juin 2008
quelli chi un sannu parlà corsu so quelli di a corsica sutana...

Commentaire lingua corsa Par aiacinu le Jeudi 12 Juin 2008
johana l'arcusgi c'est un groupe de haute corse ce n'est pas le meme corse qu'à ajaccio,sartene,corte ...

Commentaire Par débutant le Samedi 17 Mai 2008
Ti ringraziu o Andria

Commentaire Par Andria le Jeudi 15 Mai 2008
-----1------------------
-----1----------3------
-----1----------3------
-----1----------3------
-----1-----------------
-----1-----------------

Commentaire Par un débutant le Lundi 12 Mai 2008
Quelqu'un peut me dire où placer les doigts pour le Sib ? Vi ringraziu

Commentaire Par pastoru2a le Jeudi 14 Février 2008
di nudda

Commentaire Par arpeghju le Jeudi 14 Février 2008
ti ringraziu pastorev2a

Commentaire voici l'arpege Par pastoru2a le Mercredi 06 Février 2008
capo 4 intro partez en postion du Rém


---1---------------3--5--3--1--------0------------010------3----
-------------3----------------------------------3-------------------
---------2-----------------------0-----------0-------------0------
---0--------------------------------------------------------------
----------------------------------------3---------------------
------------------------------------------------------------------



---1---------------3--5--3--1--------0------------010------3----
-------------3----------------------------------3-------------------
---------2-----------------------0-----------0-------------0------
---0--------------------------------------------------------------
----------------------------------------3---------------------
------------------------------------------------------------------



--------------0----x-------------0---------1-------------------------
----------3--------x----------3---------3--------------------------
------2------------x-------2---------2--------2-----------------------
--0----------------x----0-------------------------------------------
-------------------x----------------------------------------------
-----------------------------------------------------------------

------------010-----3------5---3---5---3--------------------------5--3-----
---------3-------------------------------------6-5-6-5---3-5-6---------
-------0----------0------------------------------------------------
-----------------------------------------------------------------
----3------------------------------------------------------------
-----------------------------------------------------------------

--5--3--5--3--------------------5-3---------0-1-0-------------------------
----------------6-5-6-5-3-5-6------------3---------3--1-3-------------------
------------------------------------------2-----------------------
----------------------------------------0-------------------------
--------------------------------------------------------------0---
-----------------------------------------------------------------

eccu,bon c'est une version adaptée pour une guitare l'original se fait à deux a prestu

Commentaire Par johanna le Jeudi 15 Novembre 2007
moi qui suis corse, je vois qu'il y a beaucoup de faute d'orthographe rédigé la !!!!
au sinon j'adOOOOOOOOOre ste chanson

Commentaire Par ar le Lundi 12 Novembre 2007
arpege svp

© 2004-2019 SUNEMU.NET - Flux RSS