Sunemu.net / Artistes / I Muvrini / Ti ringrazianu / Mà oghje m'avecu  

Mà oghje m'avecu

Mà oghje m'avecu

Intro de la chanson

E|-7--6---------------------------|---------------------------------|-6------|---------------------|-6------|
B|---------9---7---9---7---6----|-6------------------------------|-6------|-7----6-------------|-7------|
G|-----------------------------8--|-----8---7-----7---------------|-7------|-----------8----7---|-8------|
D|---------------------------------|------------9-----9---8---6---|-8------|---------------------|-8------|
A|---------------------------------|---------------------------------|-8------|---------------------|-6------|
E|---------------------------------|---------------------------------|-6------|---------------------|-6------|

Intro de la partie chantée

E|-----------------------------0---|-2---3---0-----|
B|-------------------------0-------|---------0------|
G|---------------------0-----------|---------0------|
D|-----------------2---------------|---------2------|
A|-------------2-------------------|---------2------|
E|-0---2---3----------------------|---------0------|

Créé par krampopseudo le 24 Juil 2020
Dernière modification par krampopseudo le 24 Juil 2020

Note : Note de la tablature de
Mà oghje m'avecu (0 votes)

Nombre de clics : 5

Envoyer les accords de 
Mà oghje m'avecu à un ami Envoyer à un ami
Imprimer les accords de 
Mà oghje m'avecu Imprimer




© 2004-2020 SUNEMU.NET - Flux RSS