Sunemu.net / Artistes / I Messageri / Pè fà la campà / Di mi Quandu  

Di mi Quandu

Di mi Quandu

Dì mi quandu
(Marc Ventura / Fabrice Andreani)

intro ré sol ré sol

Possu andà à i quattru venti  
                                        Sol
Francà le torna e fruntiere
La                                  Re   bm.....
Strade quantu mi n'inventi
Mim                                
Pè ritruvà ciò ch'è tù ere
La                                 re-   ré

Dì mi quale hè chì e cunsola
Tutte le toie e pene piatte
Quandu a sera ne volti sola
U core quale u sente batte
                                 

Cum'una ferita ch'ùn guarisce più
sol.................    la...
U più bellu amore u m'ai datu tù
ré                            bm

Dì mi quandu
Leghjerai ciò ch'eo ti mandu
Ciò ch'aghju scrittu una sera
Ancu per tè s'ella era vera
A vita ch'emu fattu tandu
Dì mi quandu

Possu andà e terre luntane
Parte cù una valisgia piena
Hè sempre in le to mane
Ch'eo vecu s'ella vale a pena

Dì mi quale hè chì u ti cura
U focu per ùn lascià lu spinghje
Si di mè ùn ai più primura
S'è tù mi voli torna stringhje

Cum'una ferita ch'ùn guarisce più
U più bellu amore u m'ai datu tù

Dì mi quandu
Leghjerai ciò ch'eo ti mandu
Ciò ch'aghju scrittu una sera
Ancu per tè s'ella era vera
A vita ch'emu fattu tandu
Dì mi quandu

Position du capodastre : 2

Créé par pastoru,
le 15 Juil 2011

Note : Note des accords de
Di mi Quandu (17 votes)


Nombre de clics : 217



Commentaire Par Nc ++ -- le Samedi 11 Novembre 2017
Elle me fera toujours penser à toi,à cette année de retrouvaille en cachette, à ces virées en voiture a aspremont, italie, la fontaine de gairault ou on écoutait des musiques Corse ...et nos soirées bien qu'interdit chez toi ... en mémoire de nos meilleurs souvenirs ❤️

Commentaire Dì li la tù Par fiore2b le Samedi 17 Décembre 2011
Bonghjornu. Je cherche les accords de la chanson Dì li la tù des Messageri. J'en ai trouvés quelques uns en capo4: Ré La Sol La sur les couplets, mais ils me manquent le reste et j'arrive pas à les trouver. Merci d'avance. A prestu

Commentaire Par Frate le Mercredi 10 Août 2011
Dì mi quandu

Leghjerai ciò ch'eo ti mandu
Ré basse de Do# / Sol
Ciò ch'aghju scrittu una sera
La7 / Ré
Ancu per tè s'ella era vera
Ré basse de Do# / Sol
A vita ch'emu fattu tandu
La7 / Ré


Commentaire Par pastoru le Vendredi 22 Juillet 2011
ben ecoute j'ai essayé de la transpose en capo 2 car l'originale est en capo 2 mais les accords sonnent pas trop trop bien je ttrouve sinon regarde met un capo 4 par en do sol do sol fa apres de suite tu trouves la descente a l'oreille pour le refrrain c les meme accords que sur l intro ré et sol voila

Commentaire Refrain Par Chitaristu le Vendredi 22 Juillet 2011
Il n'y a pas d'accords sur le refrain, c'est pareil que sur les couplets donc ?

Commentaire Par Pastoru le Samedi 16 Juillet 2011
slt jeando ben je te remercie oui j'adore leur chanson il s'agit de l'intro c'est très rare que je donne l'arpège car je fais toutes les chansons "a manata" comme on dit oui beaucoup de talent ce groupe

Commentaire Par Jeando le Vendredi 15 Juillet 2011
Salut Pastoru et merci pour ton boulot sur ce site ! Dis moi l'arpzge que tu donnes c'est l'accompagnement ou l'intro ?
Des que je récupère la guitare je la bosse car elle est vraiment sympa cette chanson et ils méritent d'être plus connus avec leur talent.

Commentaire Par pastoru le Vendredi 15 Juillet 2011
------------------0-2-0--------- 1-----------------------------------0-2-0--------- 1-----------------
---------3----------------3------0------0---3---------------3----------------3------0------0---3------
-----2-----2-----------------2-------0------2-----------2-----2-----------------2-------0------2------
--0----------------------------------------------------0-------------------------------------------------
----------------------------------------------------------------------------------------------------------
----------------------------------3---------------------------------------------------3-----------------


-------0------0-1-------------------------------
-----3------3-----------------------------------
---2-----2--------------------------------------
-0---------------------------------------------
----------------------------------------------
----------------------------------------------

si vous avez des remarques n'hesitez pas

© 2004-2017 SUNEMU.NET - Flux RSS