Sunemu.net / Artistes / I Chjami Aghjalesi / Credo / L'attrachjata  

L'attrachjata

L'attrachjata

A la calata di u sole
SOL
S’inturchinesce lu monte
MI min / LA min / RE
Eiu posu sott’a pampana
SOL
L’ochji chjosi una cria
MI min / LA min / RE
Quante stagioni sò passate
SI 7 / MI min
Sopr’a a zitellina
LA min / RE
E l’odore di a terra croscia da tandu mi
DO / RE / SOL / MI min / DO / RE / SOL
Seguita
SOLO : DO / RE / SOL / MI min / DO / RE / SOL

Di Santa Maria e rinfriscate
Aspettava un tempurale
Tamanta fritulosa paura
A l’agrottu di a cucina
Quandu scuppiavanu infiarate
L’ultime accendite
E l’odore di a terra croscia da tandu mi
Seguita

A sei ore l’acqua in un sussurime
Disceta la moi memoria
Chì luntana di mè curria
Eppo l’atrachjata m’abbraccia
Pè stancià ogni sete
Incù u silenziu d’eternità
E l’odore di a terra croscia da tandu mi
Seguita

Nu l’aria colma di friscura
Cum’è circhendu l’ore perse
M’arrembu à e muraglie calde
L’ortu di sulia in silenziu si lagna
Aspettendu a divina guazza
Chì pienghjendu bagnerà
E l’odore di a terra croscia da tandu mi
Seguita

Avà l’orizonte s’abbughja
Cum’è u spechju di a fata
Sbaliendu a nostra vita
E incù l’acque chjare
Campa l’etern fiume
Chì un ghjornu trinca
Quandu nu a terra croscia Una si chjina.

Position du capodastre : 0

Créé par seb,
le 29 Jan 2005

Note : Note des accords de
L'attrachjata (2 votes)


Nombre de clics : 1101



Commentaire Par Sattix le Dimanche 17 Février 2008
Salute a tutti moi je la jou comme celà

A la calata di u sole
SOL/Do/Sol
S’inturchinesce lu monte
MI min /Do/la 7/ RE
Eiu posu sott’a pampana
SOL/do/sol
L’ochji chjosi una cria
MI min /do/la7/ RE
Quante stagioni sò passate
SI 7 / MI min
Sopr’a a zitellina
la7/do/re/do
E l’odore di a terra croscia da tandu mi
DO / RE / SOL / MI min / DO / RE / SOL
Seguita
SOLO : DO / RE / SOL / MI min / DO / RE / SOL

Mais pour descend du Sol au Mim faut faire cet accord

----------------------------------------------------------------- mi aigu
----------3---------------------------------------------------- si
--------2------------------------------------------------------ sol
----------------------------------------------------------------- re
----------------------------------------------------------------- la
----2---------------------------------------------------------- mi grave

Et pour le solo c'est sa
je vous donne les note a faire sur les accords au dessus en fin de texte

---3----2----1----0-----0-----2----2-----3----2-----0------------------------------------------------------------------ mi aigu
---------------------------------------------------------------3-------1------1------3------3---------------------- si
----------------------------------------------------------------------------------------------------0---------- sol
-------------------------------------------------------------------------------------------------------------- Re
-------------------------------------------------------------------------------------------------------------- la
-------------------------------------------------------------------------------------------------------------- mi grave

© 2004-2019 SUNEMU.NET - Flux RSS