Sunemu.net / Artistes / A Primavera / A Primavera inc... / Primavera  

Primavera

Primavera

        Em    D7  G         Am   B    Em
E||-----------------------|----0------------------|
A||------0-2-0-2---2------|--------------2-0-2----|
E||--2--------------------|-----------------------|      X2
C||--------------0---0-2--|--2---2-0-2-0----------|
G||----0------------------|--------------------0--|

        C  D7   G         F#m  B7   Em
E||--------0-0---0------|-----------------------|
A||------0-----------2--|--2---2-0-2-0-------2--|
E||--2------------------|----------------2------|
C||------------2---2----|----2------------------|
G||----0----------------|--------------0---0----|

        C  D7   G         F#m  B7   Em
E||--------0-0---0------|-----------------------|
A||------0-----------2--|--2---2-0-2-0----------|
E||--2------------------|----------------2---0--|
C||------------2---2----|----2------------------|
G||----0----------------|--------------0---0----|

Créé par Matteu le 22 Déc 2007
Dernière modification par Matteu le 22 Déc 2007

Note : Note de la tablature de
Primavera (0 votes)

Nombre de clics : 938

Envoyer les accords de 
Primavera à un ami Envoyer à un ami
Imprimer les accords de 
Primavera Imprimer




© 2004-2019 SUNEMU.NET - Flux RSS