RechercherRechercher  S'enregistrerS'enregistrer   ProfilProfil   Se connecter pour vérifier ses messages privésSe connecter pour vérifier ses messages privés   ConnexionConnexion 


A Ghitarra Tablature

 
Poster un nouveau sujet   Répondre au sujet    Le forum -> Section accords...
Voir le sujet précédent :: Voir le sujet suivant  
Auteur Message
Gabbro
Guitariste interessé


Inscrit le: 02 Sep 2018
Messages: 2

MessagePosté le: 03 Sep 2018, 18:08    Sujet du message: A Ghitarra Tablature Répondre en citant

Bonjour, je ne sais pas si les tablatures sont acceptées sur ce site mais j'aimerais partager un arrangement de A ghitarra de Diana Di L'Alba qui permet de chanter par dessus

[INTRO]

e|--------0-1-----3--------|---5------5-------5------|----------3-1-0----------|
B|------3------3-----1-----|--------5-------5-----5--|----------------3-1-3----|
G|----2--------------------|------5------5------------|-------0-------------2----|
D|--0----------------------|---3----------------------|-----2----------------0---|
A|-------------------------|---------------------------|---3----------------------|
E|-------------------------|---------------------------|--------------------------|

e|------0-1-------5~-----|--------0-1-----3--------|---5------5--------5-----|
B|----3--------------------|------3------3-----1-----|--------5--------5----5--|
G|--2----------------------|----2--------------------|------5--------5---------|
D|-------------------------|--0----------------------|---3---------------------|
A|-------------------------|-------------------------|-------------------------|
E|-------------------------|-------------------------|-------------------------|

e|--------1-----------0----|--------1----0----0------|--------1----0----0------|
B|------3-----------1------|--------3----3----3------|--------3----3----3--1---|
G|----0-----------0--------|------2----2----2--------|------2----2----2--------|
D|-------------------------|----0--------------------|----0--------------------|
A|--3----------3-----------|-------------------------|-------------------------|
E|-------------------------|-------------------------|-------------------------|


[REFRAIN]

Eiu ghitarra tralasciata Nant’à u muru appiccata Oghje mi vogliu
e|------1---------0--------|------1---------0--------|------1-----0----0-------|
B|------3---------1--------|------3---------1--------|------3-----1----1-------|
G|----2---------2----------|----2---------2----------|----2----2-----2---------|
D|--0----------------------|--0----------------------|--0----------------------|
A|------------0------------|------------0------------|-------------------------|
E|-------------------------|-------------------------|-------------------------|
lagnà... E dumane chì ne serà Sola sola, ùn
e|-------1----0---0--------|-------1---------0-------|--------1------------0---|
B|-------1----1---1--------|-------1---------1-------|--------1------------1---|
G|-----2---2----2----------|-----2---------0---------|------2-----2-----0------|
D|---3---------------------|---3---------------------|----3--------------------|
A|-------------------------|-------------3-----------|----------------3--------|
E|-------------------------|-------------------------|-------------------------|
possu stà Senza musica senza sunà senza
e|-------1----0----0-------|----------3-1-0----------|-----------/5------------| (*)
B|-------3----1----1-------|----------------3-1------|--3/5-----5---5----------|
G|-----2----2----2---------|-------3-----------------|--------5-------5--------|
D|---0---------------------|-----3-------------------|------5------------------|
A|-------------------------|--1----------------------|--1/3--------------------|
E|-------------------------|-------------------------|-------------------------|
sunà
e|------5------5-----5-----|--------5-----5---5------|
B|------6------5-----5-----|--------6-----5---5------|
G|------7------7-----7-----|--------7-----7---7------|
D|----7-----7------7-------|------7----7----7--------|
A|--5----------------------|----5--------------------|
E|-------------------------|-------------------------|

[VERSET]
Mi ricordu certe sere E serinate sincere D’un amore
e|------1---------0--------|------1---------0--------|------1-----0----0-------|
B|------3---------1--------|------3---------1--------|------3-----1----1-------|
G|----2---------2----------|----2---------2----------|----2----2-----2---------|
D|--0----------------------|--0----------------------|--0----------------------|
A|------------0------------|------------0------------|-------------------------|
E|-------------------------|-------------------------|-------------------------|
infiaratu A zitella spasimava Da la voce di
e|-------1----0---0--------|-------1---------0-------|--------1------------0---|
B|-------1----1---1--------|-------1---------1-------|--------1------------1---|
G|-----2---2----2----------|-----2---------0---------|------2-----2-----0------|
D|---3---------------------|---3---------------------|----3--------------------|
A|-------------------------|-------------3-----------|----------------3--------|
E|-------------------------|-------------------------|-------------------------|
l’amatu Chì cantava à più pudè à più pudè à più
e|-------1----0----0-------|-------1----0----0-------|----------3-1-0----------|
B|-------3----1----1-------|-------3----1----1-------|----------------3-1------|
G|-----2----2----2---------|-----2----2----2---------|-------3-----------------|
D|---0---------------------|---0---------------------|-----3-------------------|
A|-------------------------|-------------------------|--1----------------------|
E|-------------------------|-------------------------|-------------------------|
pudè
e|-----------/5------------|
B|---------5----5----------|
G|-------5--------5--------|
D|-----5-------------------|
A|---3---------------------|
E|-------------------------|

Les accords et l'arrangement restent les mêmes pour le reste de la musique


[REFRAIN]
Eiu ghitarra tralasciata
Nant’à u muru appiccata
Oghje mi vogliu lagnà
E dumane chì ne serà
Sola sola, ùn possu stà
Senza musica, senza sunà, senza sunà


Forse un ghjornu venerà
Una manu mi frisgerà
Le mo corde da trimà
Nascerà un altru amore
Da pizzicà ne lu core
Lu mo legnu lacrimà

[REFRAIN]
Eiu ghitarra tralasciata
Nant’à u muru appiccata
Oghje mi vogliu lagnà
E dumane chì ne serà
Sola sola, ùn possu stà
Senza musica, senza sunà, senza sunà


In la casa di l’amore
Seraghju eiu lu tesoru
Da musicà la so vita
Nasceranu le canzone
Fiurisceranu li cori
D’una lea infinita, infinita..., infinita...


In la casa di l’amore eraghju eiu lu tesoru Da musicà la so
e|------1---------0--------|------1---------0--------|------1-----0----0-------|
B|------3---------1--------|------3---------1--------|------3-----1----1-------|
G|----2---------2----------|----2---------2----------|----2----2-----2---------|
D|--0----------------------|--0----------------------|--0----------------------|
A|------------0------------|------------0------------|-------------------------|
E|-------------------------|-------------------------|-------------------------|
vita... Nasceranu le canzone Fiurisceranu
e|-------1----0---0--------|-------1---------0-------|--------1------------0---|
B|-------1----1---1--------|-------1---------1-------|--------1------------1---|
G|-----2---2----2----------|-----2---------0---------|------2-----2-----0------|
D|---3---------------------|---3---------------------|----3--------------------|
A|-------------------------|-------------3-----------|----------------3--------|
E|-------------------------|-------------------------|-------------------------|
li cori D’una lea infinita infinita
e|-------1----0----0-------|-------1----0----0-------|----------3-1-0----------|
B|-------3----1----1-------|-------3----1----1-------|-----------------3-1------|
G|-----2----2----2---------|-----2----2----2---------|-------3-----------------|
D|---0---------------------|---0---------------------|-----3-------------------|
A|-------------------------|-------------------------|--1----------------------|
E|-------------------------|-------------------------|-------------------------|
infinita infini... ...ta
e|-----------/5------------|------5------5-----5-----|--------5-----5---5------|
B|--3/5-----5---5----------|-----6------5-----5-----|--------6-----5---5------|
G|--------5-------5--------|------7------7-----7-----|--------7-----7---7------|
D|------5------------------|----7-----7------7-------|------7----7----7--------|
A|--1/3--------------------|--5----------------------|----5--------------------|
E|-------------------------|-------------------------|-------------------------|

[OUTRO]:

infinita infinita
e|----------3-1-0----------|-----------/5------------| (*)
B|----------------3-1------|--3/5-----5---5----------|
G|-------3-----------------|--------5-------5--------|
D|-----3-------------------|------5------------------|
A|--1----------------------|--1/3--------------------|
E|-------------------------|-------------------------|
infini... ...ta
e|------5------5-----5-----|--------5-----5---5------|
B|------6------5-----5-----|--------6-----5---5------|
G|------7------7-----7-----|--------7-----7---7------|
D|----7-----7------7-------|------7----7----7--------|
A|--5----------------------|----5--------------------|
E|-------------------------|-------------------------|

infinita infinita
e|----------3-1-0----------|-----------/5------------| (*)
B|----------------3-1------|--3/5-----5---5----------|
G|-------3-----------------|--------5-------5--------|
D|-----3-------------------|------5------------------|
A|--1----------------------|--1/3--------------------|
E|-------------------------|-------------------------|
infini... ...ta
e|------5------5-----5-----|--------5-----5---5------|
B|------6------5-----5-----|--------6-----5---5------|
G|------7------7-----7-----|--------7-----7---7------|
D|----7-----7------7-------|------7----7----7--------|
A|--5----------------------|----5--------------------|
E|-------------------------|-------------------------|


e|----------3-1-0----------|-----------/5------------| (*)
B|----------------3-1------|--3/5-----5---5----------|
G|-------3-----------------|--------5-------5--------|
D|-----3-------------------|------5------------------|
A|--1----------------------|--1/3--------------------|
E|-------------------------|-------------------------|

e|------5------5-----5-----|--------5-----5---5------|
B|------6------5-----5-----|--------6-----5---5------|
G|------7------7-----7-----|--------7-----7---7------|
D|----7-----7------7-------|------7----7----7--------|
A|--5----------------------|----5--------------------|
E|-------------------------|-------------------------| de plus en plus loin...

P.S

(*) Il peut être difficile de chanter ce passage car l'arpège est perdu pendant un instant. Il est
possible de le substituer par
e|-----------1-------------|-------------/5------------|
B|---------3---3---3-------|----5-----5---5----------|
G|-------3-------3---------|--------5-------5--------|
D|-----3-------------------|------5------------------|
A|--1----------------------|----3--------------------|
E|-------------------------|-------------------------|, moins fidèle à la version originale mais plus
facile à jouer en chantant

Le slide sur le mi aigu est obtenu en passant l'index de la 3e case à la 5e tout en gardant la position du
barré.
Revenir en haut de page
Voir le profil de l'utilisateur Envoyer un message privé
Lisuccupatu
Guitariste interessé


Inscrit le: 03 Fév 2017
Messages: 6
Localisation: Balagna

MessagePosté le: 07 Sep 2018, 21:10    Sujet du message: Répondre en citant

Oui les TAB et même les fichiers GP sont acceptées sur le site, vous pouvez passer voir dans la section accords il n'y a pas que des fichiers CRD ( avec des accords et des paroles )

Very Happy
_________________
Culà vecu a neve per i chjassi
Culà sempre voltenu i mio passi
Culà ci s'hè firmata a mio vita
Revenir en haut de page
Voir le profil de l'utilisateur Envoyer un message privé
Gabbro
Guitariste interessé


Inscrit le: 02 Sep 2018
Messages: 2

MessagePosté le: 17 Sep 2018, 14:01    Sujet du message: Tablature disponible sur Ultimate Guitar.com Répondre en citant

Salut, juste pour dire que cette tablature est disponible sur Ultimate Guitare.com. Je le précise car les lignes ici peuvent etre un peu décalées ce qui n'est pas le cas sur UG. Smile
Revenir en haut de page
Voir le profil de l'utilisateur Envoyer un message privé
Montrer les messages depuis:   
Poster un nouveau sujet   Répondre au sujet    Le forum -> Section accords... Toutes les heures sont au format GMT + 1 Heure
Page 1 sur 1

 
Sauter vers:  
Vous ne pouvez pas poster de nouveaux sujets dans ce forum
Vous ne pouvez pas répondre aux sujets dans ce forum
Vous ne pouvez pas éditer vos messages dans ce forum
Vous ne pouvez pas supprimer vos messages dans ce forum
Vous ne pouvez pas voter dans les sondages de ce forum


2004-2008 SUNEMU.NET - Tous vos accords guitare de chansons corses